0
SECTION
2
HEADER
9
$INSUNITS
70
4
9
$ACADVER
1
AC1014
9
$HANDSEED
5
FFFF
0
ENDSEC
0
SECTION
2
TABLES
0
TABLE
2
VPORT
5
8
100
AcDbSymbolTable
0
ENDTAB
0
TABLE
2
LTYPE
5
5
100
AcDbSymbolTable
0
LTYPE
5
14
100
AcDbSymbolTableRecord
100
AcDbLinetypeTableRecord
2
BYBLOCK
70
0
0
LTYPE
5
15
100
AcDbSymbolTableRecord
100
AcDbLinetypeTableRecord
2
BYLAYER
70
0
0
ENDTAB
0
TABLE
2
LAYER
5
2
100
AcDbSymbolTable
70
2
0
LAYER
5
50
100
AcDbSymbolTableRecord
100
AcDbLayerTableRecord
2
0
70
0
6
CONTINUOUS
0
ENDTAB
0
TABLE
2
STYLE
5
3
100
AcDbSymbolTable
70
1
0
STYLE
5
11
100
AcDbSymbolTableRecord
100
AcDbTextStyleTableRecord
2
STANDARD
70
0
0
ENDTAB
0
TABLE
2
VIEW
5
6
100
AcDbSymbolTable
70
0
0
ENDTAB
0
TABLE
2
UCS
5
7
100
AcDbSymbolTable
70
0
0
ENDTAB
0
TABLE
2
APPID
5
9
100
AcDbSymbolTable
70
2
0
APPID
5
12
100
AcDbSymbolTableRecord
100
AcDbRegAppTableRecord
2
ACAD
70
0
0
ENDTAB
0
TABLE
2
DIMSTYLE
5
A
100
AcDbSymbolTable
70
1
0
ENDTAB
0
TABLE
2
BLOCK_RECORD
5
1
100
AcDbSymbolTable
70
1
0
BLOCK_RECORD
5
1F
100
AcDbSymbolTableRecord
100
AcDbBlockTableRecord
2
*MODEL_SPACE
0
BLOCK_RECORD
5
1B
100
AcDbSymbolTableRecord
100
AcDbBlockTableRecord
2
*PAPER_SPACE
0
ENDTAB
0
ENDSEC
0
SECTION
2
BLOCKS
0
BLOCK
5
20
100
AcDbEntity
100
AcDbBlockBegin
2
*MODEL_SPACE
0
ENDBLK
5
21
100
AcDbEntity
100
AcDbBlockEnd
0
BLOCK
5
1C
100
AcDbEntity
100
AcDbBlockBegin
2
*PAPER_SPACE
0
ENDBLK
5
1D
100
AcDbEntity
100
AcDbBlockEnd
0
ENDSEC
0
SECTION
2
ENTITIES
0
LINE
5
100
100
AcDbEntity
8
0
100
AcDbLine
10
0
20
0
30
0
11
80.050000000000011
21
0
31
0
0
LINE
5
101
100
AcDbEntity
8
0
100
AcDbLine
10
80.050000000000011
20
0
30
0
11
80.050000000000011
21
3.9999999999999996
31
0
0
LINE
5
102
100
AcDbEntity
8
0
100
AcDbLine
10
80.050000000000011
20
3.9999999999999996
30
0
11
159.95000000000002
21
3.9999999999999996
31
0
0
LINE
5
103
100
AcDbEntity
8
0
100
AcDbLine
10
159.95000000000002
20
3.9999999999999996
30
0
11
159.95000000000002
21
0
31
0
0
LINE
5
104
100
AcDbEntity
8
0
100
AcDbLine
10
159.95000000000002
20
0
30
0
11
240
21
0
31
0
0
LINE
5
105
100
AcDbEntity
8
0
100
AcDbLine
10
240.00000000000003
20
159.95000000000005
30
0
11
240
21
240.00000000000006
31
0
0
LINE
5
106
100
AcDbEntity
8
0
100
AcDbLine
10
236.00000000000006
20
80.050000000000026
30
0
11
236.00000000000006
21
159.95000000000005
31
0
0
LINE
5
107
100
AcDbEntity
8
0
100
AcDbLine
10
240.00000000000006
20
0
30
0
11
240.00000000000003
21
80.050000000000026
31
0
0
LINE
5
108
100
AcDbEntity
8
0
100
AcDbLine
10
236.00000000000006
20
159.95000000000005
30
0
11
240.00000000000003
21
159.95000000000005
31
0
0
LINE
5
109
100
AcDbEntity
8
0
100
AcDbLine
10
240.00000000000003
20
80.050000000000026
30
0
11
236.00000000000006
21
80.050000000000026
31
0
0
LINE
5
110
100
AcDbEntity
8
0
100
AcDbLine
10
80.049999999999983
20
240.00000000000003
30
0
11
0
21
240.00000000000003
31
0
0
LINE
5
111
100
AcDbEntity
8
0
100
AcDbLine
10
159.94999999999999
20
236
30
0
11
80.049999999999983
21
236
31
0
0
LINE
5
112
100
AcDbEntity
8
0
100
AcDbLine
10
240
20
240
30
0
11
159.94999999999999
21
240
31
0
0
LINE
5
113
100
AcDbEntity
8
0
100
AcDbLine
10
80.049999999999983
20
236
30
0
11
80.049999999999983
21
240.00000000000003
31
0
0
LINE
5
114
100
AcDbEntity
8
0
100
AcDbLine
10
159.94999999999999
20
240
30
0
11
159.94999999999999
21
236
31
0
0
LINE
5
115
100
AcDbEntity
8
0
100
AcDbLine
10
1.1102230246249357e-17
20
80.050000000000026
30
0
11
-1.7763568394002505e-14
21
3.5527136788005009e-14
31
0
0
LINE
5
116
100
AcDbEntity
8
0
100
AcDbLine
10
4.0000000000000178
20
159.95000000000002
30
0
11
3.9999999999999996
21
80.050000000000026
31
0
0
LINE
5
117
100
AcDbEntity
8
0
100
AcDbLine
10
3.5527136788005009e-14
20
240.00000000000003
30
0
11
1.7752466163756251e-14
21
159.95000000000002
31
0
0
LINE
5
118
100
AcDbEntity
8
0
100
AcDbLine
10
3.9999999999999996
20
80.050000000000026
30
0
11
1.1102230246249357e-17
21
80.050000000000026
31
0
0
LINE
5
119
100
AcDbEntity
8
0
100
AcDbLine
10
1.7752466163756251e-14
20
159.95000000000002
30
0
11
4.0000000000000178
21
159.95000000000002
31
0
0
ENDSEC
0
SECTION
2
OBJECTS
0
DICTIONARY
5
C
100
AcDbDictionary
3
ACAD_GROUP
350
D
3
ACAD_MLINESTYLE
350
17
0
DICTIONARY
5
D
100
AcDbDictionary
0
DICTIONARY
5
1A
330
C
100
AcDbDictionary
0
DICTIONARY
5
17
100
AcDbDictionary
0
ENDSEC
0
EOF
